Riff de californication (Bento M.)


 

e-----------------------------------------
B--------------0---1----------------------
G-----------------------------------------
D---------2------------2-----0h2p0--------
A-----0------------------------------3----
E-----------------------------------------

e-----------------------------------------
B-----------------------------------------
G--------------------0-----2--------------
D-------------------------------3---0-----
A-------------3---------------------------
E--------1--------------------------------
Anúncios

Deixe um comentário

Preencha os seus dados abaixo ou clique em um ícone para log in:

Logotipo do WordPress.com

Você está comentando utilizando sua conta WordPress.com. Sair /  Alterar )

Foto do Google+

Você está comentando utilizando sua conta Google+. Sair /  Alterar )

Imagem do Twitter

Você está comentando utilizando sua conta Twitter. Sair /  Alterar )

Foto do Facebook

Você está comentando utilizando sua conta Facebook. Sair /  Alterar )

Conectando a %s

%d blogueiros gostam disto: